INDIETRO

Testi con accordi

delle Canzoni Milanesi

MEN

 

 

 

Femm e prufemm
Davide Van De Sfroos
 
 
[INTRO]
e----------|
B----------|
G-12-12/14-|
D-12-12/14-|
A----------|
E----------|
 
e--------------|--------------|-----------15-12-----------------|
B--------------|--------------|-----------------15-12-----------|
G-14-12----12-|-14-12----12-|-14-12----------------14-12----|
D--------14----|--------14----|--------14--------------------14-|
A--------------|--------------|---------------------------------|
E--------------|--------------|---------------------------------|
 
SOL DO SOL RE
 
SOL DO SOL RE
Femm e prufemm deent in de la stnza
 SOL DO SOL RE
sel bancn la butglia la danza
 LAm DO SOL
cum rtt in de la ncc cipum sci qull che avanza
 LAm DO SOL
bceer cum cc senza speranza...
 
 SOL DO SOL RE
Qull l cul lecca lecca el fasva el legiunri
 SOL DO SOL RE
el parla de par l e cui Saant del calendri
 LAm DO RE
fma i Naziunaaj e diis che va mai in lcc
 LAm DO RE
per pagra di ricrdi che ghe slten fe del spcc
 
SOL DO 
Femm e prufemm
 
[RIFF 1]
SOL RE
e----------------------------|---------------------------|
B-------15-------15-------15-|-------15-------15---------|
G-14/16----14/16----14/16----|-14/16----14/16------------|
D----------------------------|---------------------------|
A----------------------------|---------------------------|
E----------------------------|---------------------------|
 
 
SOL DO SOL RE
Femm e prufemm [RIFF 1]
 
 MIm DO SOL
Quai ven prma de beev el f el segnu de la cruus
 MIm DO SOL
quai ven stravcca ttt e bestma a bassa vuus
 LAm DO SOL
i ttt de la barista hann scriv fin tropp ' stri
 LAM DO SOL
caramll e totocalcio e giugaduu cun sci el stt d'ori
 
 
Femm e prufemm deent in de la stnza
 
sel bancn la butglia la danza
 
cum rtt in de la ncc cipum sci qull che avanza
 
bceer cum cc senza speranza...
 
 (giro di accordi)
 
Giacumnn giachtta a quadri innaanz e indree del gabinett
 
Mariu Mosca el paar che noda in di pgin di Gazztt
 
i henn giurnaad giamm sciscia, fiaschi senza fuund 
 
radiulna cul catrr che scarcja e cerca i uund
 
 
Femm e prufemm
 
Femm e prufemm
 
 
El Tugnn l'ha faa la gura scund in una cantna
 
l'Orzowei l' naa in Francia e l'ha spusaa 'na marucchna
 
se vrda un poo el sufftt, se vrda un poo i piastrll
 

ma quaand passa la barsta... se vrda sempru qull...